  0
SECTION
  2
HEADER
  9
$ACADVER
  1
AC1015
  9
$ACADMAINTVER
 70
     6
  9
$DWGCODEPAGE
  3
ANSI_1252
  9
$INSBASE
 10
0.0
 20
0.0
 30
0.0
  9
$EXTMIN
 10
0.0
 20
0.0
 30
0.0
  9
$EXTMAX
 10
431.8
 20
279.4
 30
0.0
  9
$LIMMIN
 10
0.0
 20
0.0
  9
$LIMMAX
 10
431.8
 20
279.4
  9
$ORTHOMODE
 70
     0
  9
$REGENMODE
 70
     1
  9
$FILLMODE
 70
     1
  9
$QTEXTMODE
 70
     0
  9
$MIRRTEXT
 70
     1
  9
$LTSCALE
 40
1.0
  9
$ATTMODE
 70
     1
  9
$TEXTSIZE
 40
3.5
  9
$TRACEWID
 40
1.0
  9
$TEXTSTYLE
  7
Standard
  9
$CLAYER
  8
0
  9
$CELTYPE
  6
ByLayer
  9
$CECOLOR
 62
   256
  9
$CELTSCALE
 40
1.0
  9
$DISPSILH
 70
     0
  9
$DIMSCALE
 40
1.0
  9
$DIMASZ
 40
6.0
  9
$DIMEXO
 40
1.0
  9
$DIMDLI
 40
3.75
  9
$DIMRND
 40
0.0
  9
$DIMDLE
 40
0.0
  9
$DIMEXE
 40
1.0
  9
$DIMTP
 40
0.0
  9
$DIMTM
 40
0.0
  9
$DIMTXT
 40
3.5
  9
$DIMCEN
 40
2.5
  9
$DIMTSZ
 40
0.0
  9
$DIMTOL
 70
     0
  9
$DIMLIM
 70
     0
  9
$DIMTIH
 70
     1
  9
$DIMTOH
 70
     1
  9
$DIMSE1
 70
     0
  9
$DIMSE2
 70
     0
  9
$DIMTAD
 70
     1
  9
$DIMZIN
 70
     0
  9
$DIMBLK
  1

  9
$DIMASO
 70
     1
  9
$DIMSHO
 70
     1
  9
$DIMPOST
  1

  9
$DIMAPOST
  1

  9
$DIMALT
 70
     0
  9
$DIMALTD
 70
     3
  9
$DIMALTF
 40
0.0393700787
  9
$DIMLFAC
 40
1.0
  9
$DIMTOFL
 70
     1
  9
$DIMTVP
 40
0.0
  9
$DIMTIX
 70
     0
  9
$DIMSOXD
 70
     0
  9
$DIMSAH
 70
     0
  9
$DIMBLK1
  1

  9
$DIMBLK2
  1

  9
$DIMSTYLE
  2
ISO-25
  9
$DIMCLRD
 70
     0
  9
$DIMCLRE
 70
     0
  9
$DIMCLRT
 70
     0
  9
$DIMTFAC
 40
1.0
  9
$DIMGAP
 40
1.524
  9
$DIMJUST
 70
     0
  9
$DIMSD1
 70
     0
  9
$DIMSD2
 70
     0
  9
$DIMTOLJ
 70
     0
  9
$DIMTZIN
 70
     0
  9
$DIMALTZ
 70
     0
  9
$DIMALTTZ
 70
     0
  9
$DIMUPT
 70
     0
  9
$DIMDEC
 70
     3
  9
$DIMTDEC
 70
     3
  9
$DIMALTU
 70
     2
  9
$DIMALTTD
 70
     3
  9
$DIMTXSTY
  7
Standard
  9
$DIMAUNIT
 70
     0
  9
$DIMADEC
 70
     2
  9
$DIMALTRND
 40
0.0
  9
$DIMAZIN
 70
     0
  9
$DIMDSEP
 70
    44
  9
$DIMATFIT
 70
     3
  9
$DIMFRAC
 70
     0
  9
$DIMLDRBLK
  1

  9
$DIMLUNIT
 70
     2
  9
$DIMLWD
 70
    -2
  9
$DIMLWE
 70
    -2
  9
$DIMTMOVE
 70
     0
  9
$LUNITS
 70
     2
  9
$LUPREC
 70
     2
  9
$SKETCHINC
 40
1.0
  9
$FILLETRAD
 40
10.0
  9
$AUNITS
 70
     0
  9
$AUPREC
 70
     2
  9
$MENU
  1
.
  9
$ELEVATION
 40
0.0
  9
$PELEVATION
 40
0.0
  9
$THICKNESS
 40
0.0
  9
$LIMCHECK
 70
     0
  9
$CHAMFERA
 40
10.0
  9
$CHAMFERB
 40
10.0
  9
$CHAMFERC
 40
20.0
  9
$CHAMFERD
 40
0.0
  9
$SKPOLY
 70
     0
  9
$TDCREATE
 40
2455461.440197292
  9
$TDUCREATE
 40
2455461.356863958
  9
$TDUPDATE
 40
2455461.440197303
  9
$TDUUPDATE
 40
2455461.35686397
  9
$TDINDWG
 40
0.0000000116
  9
$TDUSRTIMER
 40
0.0000000116
  9
$USRTIMER
 70
     1
  9
$ANGBASE
 50
0.0
  9
$ANGDIR
 70
     0
  9
$PDMODE
 70
     0
  9
$PDSIZE
 40
-1.0
  9
$PLINEWID
 40
0.0
  9
$SPLFRAME
 70
     0
  9
$SPLINETYPE
 70
     6
  9
$SPLINESEGS
 70
     8
  9
$HANDSEED
  5
93
  9
$SURFTAB1
 70
     6
  9
$SURFTAB2
 70
     6
  9
$SURFTYPE
 70
     6
  9
$SURFU
 70
     6
  9
$SURFV
 70
     6
  9
$UCSBASE
  2

  9
$UCSNAME
  2

  9
$UCSORG
 10
0.0
 20
0.0
 30
0.0
  9
$UCSXDIR
 10
1.0
 20
0.0
 30
0.0
  9
$UCSYDIR
 10
0.0
 20
1.0
 30
0.0
  9
$UCSORTHOREF
  2

  9
$UCSORTHOVIEW
 70
     0
  9
$UCSORGTOP
 10
0.0
 20
0.0
 30
0.0
  9
$UCSORGBOTTOM
 10
0.0
 20
0.0
 30
0.0
  9
$UCSORGLEFT
 10
0.0
 20
0.0
 30
0.0
  9
$UCSORGRIGHT
 10
0.0
 20
0.0
 30
0.0
  9
$UCSORGFRONT
 10
0.0
 20
0.0
 30
0.0
  9
$UCSORGBACK
 10
0.0
 20
0.0
 30
0.0
  9
$PUCSBASE
  2

  9
$PUCSNAME
  2

  9
$PUCSORG
 10
0.0
 20
0.0
 30
0.0
  9
$PUCSXDIR
 10
1.0
 20
0.0
 30
0.0
  9
$PUCSYDIR
 10
0.0
 20
1.0
 30
0.0
  9
$PUCSORTHOREF
  2

  9
$PUCSORTHOVIEW
 70
     0
  9
$PUCSORGTOP
 10
0.0
 20
0.0
 30
0.0
  9
$PUCSORGBOTTOM
 10
0.0
 20
0.0
 30
0.0
  9
$PUCSORGLEFT
 10
0.0
 20
0.0
 30
0.0
  9
$PUCSORGRIGHT
 10
0.0
 20
0.0
 30
0.0
  9
$PUCSORGFRONT
 10
0.0
 20
0.0
 30
0.0
  9
$PUCSORGBACK
 10
0.0
 20
0.0
 30
0.0
  9
$USERI1
 70
     0
  9
$USERI2
 70
     0
  9
$USERI3
 70
     0
  9
$USERI4
 70
     0
  9
$USERI5
 70
     0
  9
$USERR1
 40
0.0
  9
$USERR2
 40
0.0
  9
$USERR3
 40
0.0
  9
$USERR4
 40
0.0
  9
$USERR5
 40
0.0
  9
$WORLDVIEW
 70
     1
  9
$SHADEDGE
 70
     3
  9
$SHADEDIF
 70
    70
  9
$TILEMODE
 70
     1
  9
$MAXACTVP
 70
    64
  9
$PINSBASE
 10
0.0
 20
0.0
 30
0.0
  9
$PLIMCHECK
 70
     0
  9
$PEXTMIN
 10
1.0000000000E+20
 20
1.0000000000E+20
 30
1.0000000000E+20
  9
$PEXTMAX
 10
-1.0000000000E+20
 20
-1.0000000000E+20
 30
-1.0000000000E+20
  9
$PLIMMIN
 10
0.0
 20
0.0
  9
$PLIMMAX
 10
420.0
 20
297.0
  9
$UNITMODE
 70
     0
  9
$VISRETAIN
 70
     1
  9
$PLINEGEN
 70
     0
  9
$PSLTSCALE
 70
     1
  9
$TREEDEPTH
 70
  3020
  9
$CMLSTYLE
  2
Standard
  9
$CMLJUST
 70
     0
  9
$CMLSCALE
 40
20.0
  9
$PROXYGRAPHICS
 70
     1
  9
$MEASUREMENT
 70
     1
  9
$CELWEIGHT
370
    -1
  9
$ENDCAPS
280
     0
  9
$JOINSTYLE
280
     0
  9
$LWDISPLAY
290
     1
  9
$INSUNITS
 70
     4
  9
$HYPERLINKBASE
  1

  9
$STYLESHEET
  1

  9
$XEDIT
290
     1
  9
$CEPSNTYPE
380
     0
  9
$PSTYLEMODE
290
     1
  9
$FINGERPRINTGUID
  2
{89E8DB56-8CD6-4BD0-A652-39B66C0CC8CB}
  9
$VERSIONGUID
  2
{FAEB1C32-E019-11D5-929B-00C0DF256EC4}
  9
$EXTNAMES
290
     1
  9
$PSVPSCALE
 40
0.0
  9
$OLESTARTUP
290
     0
  0
ENDSEC
  0
SECTION
  2
CLASSES
  0
CLASS
  1
ACDBDICTIONARYWDFLT
  2
AcDbDictionaryWithDefault
  3
ObjectDBX Classes
 90
        0
280
     0
281
     0
  0
CLASS
  1
VISUALSTYLE
  2
AcDbVisualStyle
  3
ObjectDBX Classes
 90
     4095
280
     0
281
     0
  0
CLASS
  1
DICTIONARYVAR
  2
AcDbDictionaryVar
  3
ObjectDBX Classes
 90
        0
280
     0
281
     0
  0
CLASS
  1
ACDBPLACEHOLDER
  2
AcDbPlaceHolder
  3
ObjectDBX Classes
 90
        0
280
     0
281
     0
  0
CLASS
  1
LAYOUT
  2
AcDbLayout
  3
ObjectDBX Classes
 90
        0
280
     0
281
     0
  0
ENDSEC
  0
SECTION
  2
TABLES
  0
TABLE
  2
VPORT
  5
8
330
0
100
AcDbSymbolTable
 70
     1
  0
VPORT
  5
29
330
8
100
AcDbSymbolTableRecord
100
AcDbViewportTableRecord
  2
*Active
 70
     0
 10
0.0
 20
0.0
 11
1.0
 21
1.0
 12
215.9
 22
139.7
 13
0.0
 23
0.0
 14
10.0
 24
10.0
 15
10.0
 25
10.0
 16
0.0
 26
0.0
 36
1.0
 17
0.0
 27
0.0
 37
0.0
 40
279.4
 41
1.5454545455
 42
50.0
 43
0.0
 44
0.0
 50
0.0
 51
0.0
 71
     0
 72
  2000
 73
     1
 74
     3
 75
     0
 76
     0
 77
     0
 78
     0
281
     0
 65
     1
110
0.0
120
0.0
130
0.0
111
1.0
121
0.0
131
0.0
112
0.0
122
1.0
132
0.0
 79
     0
146
0.0
  0
ENDTAB
  0
TABLE
  2
LTYPE
  5
5
330
0
100
AcDbSymbolTable
 70
     6
  0
LTYPE
  5
14
330
5
100
AcDbSymbolTableRecord
100
AcDbLinetypeTableRecord
  2
ByBlock
 70
     0
  3

 72
    65
 73
     0
 40
0.0
  0
LTYPE
  5
15
330
5
100
AcDbSymbolTableRecord
100
AcDbLinetypeTableRecord
  2
ByLayer
 70
     0
  3

 72
    65
 73
     0
 40
0.0
  0
LTYPE
  5
16
330
5
100
AcDbSymbolTableRecord
100
AcDbLinetypeTableRecord
  2
Continuous
 70
     0
  3
Solid line
 72
    65
 73
     0
 40
0.0
  0
LTYPE
  5
3B
330
5
100
AcDbSymbolTableRecord
100
AcDbLinetypeTableRecord
  2
HIDDEN
 70
     0
  3
Hidden __ __ __ __ __ __ __ __ __ __ __ __ __ __
 72
    65
 73
     2
 40
1.905
 49
1.27
 74
     0
 49
-0.635
 74
     0
  0
LTYPE
  5
3C
330
5
100
AcDbSymbolTableRecord
100
AcDbLinetypeTableRecord
  2
PHANTOM
 70
     0
  3
Phantom ______  __  __  ______  __  __  ______
 72
    65
 73
     6
 40
12.7
 49
6.35
 74
     0
 49
-1.27
 74
     0
 49
1.27
 74
     0
 49
-1.27
 74
     0
 49
1.27
 74
     0
 49
-1.27
 74
     0
  0
LTYPE
  5
3D
330
5
100
AcDbSymbolTableRecord
100
AcDbLinetypeTableRecord
  2
CENTER
 70
     0
  3
Center ____ _ ____ _ ____ _ ____ _ ____ _ ____
 72
    65
 73
     4
 40
10.16
 49
6.35
 74
     0
 49
-1.27
 74
     0
 49
1.27
 74
     0
 49
-1.27
 74
     0
  0
LTYPE
  5
3E
330
5
100
AcDbSymbolTableRecord
100
AcDbLinetypeTableRecord
  2
CENTERX2
 70
     0
  3
Center (2x) ________  __  ________  __  _____
 72
    65
 73
     4
 40
20.32
 49
12.7
 74
     0
 49
-2.54
 74
     0
 49
2.54
 74
     0
 49
-2.54
 74
     0
  0
LTYPE
  5
3F
330
5
100
AcDbSymbolTableRecord
100
AcDbLinetypeTableRecord
  2
DOT2
 70
     0
  3
Dot (.5x) ........................................
 72
    65
 73
     2
 40
0.635
 49
0.0
 74
     0
 49
-0.635
 74
     0
  0
ENDTAB
  0
TABLE
  2
LAYER
  5
2
330
0
100
AcDbSymbolTable
 70
     1
  0
LAYER
  5
10
330
2
100
AcDbSymbolTableRecord
100
AcDbLayerTableRecord
  2
0
 70
     0
 62
     7
  6
Continuous
370
    -3
390
F
  0
ENDTAB
  0
TABLE
  2
STYLE
  5
3
330
0
100
AcDbSymbolTable
 70
     1
  0
STYLE
  5
11
330
3
100
AcDbSymbolTableRecord
100
AcDbTextStyleTableRecord
  2
Standard
 70
     0
 40
0.0
 41
1.0
 50
0.0
 71
     0
 42
2.5
  3
txt
  4

  0
ENDTAB
  0
TABLE
  2
VIEW
  5
6
330
0
100
AcDbSymbolTable
 70
     0
  0
ENDTAB
  0
TABLE
  2
UCS
  5
7
330
0
100
AcDbSymbolTable
 70
     0
  0
ENDTAB
  0
TABLE
  2
APPID
  5
9
330
0
100
AcDbSymbolTable
 70
     1
  0
APPID
  5
12
330
9
100
AcDbSymbolTableRecord
100
AcDbRegAppTableRecord
  2
ACAD
 70
     0
  0
ENDTAB
  0
TABLE
  2
DIMSTYLE
  5
A
330
0
100
AcDbSymbolTable
 70
     1
100
AcDbDimStyleTable
  0
DIMSTYLE
105
27
330
A
100
AcDbSymbolTableRecord
100
AcDbDimStyleTableRecord
  2
ISO-25
 70
     0
 41
2.5
 42
0.625
 43
3.75
 44
1.25
 73
     0
 74
     0
 77
     1
 78
     8
140
2.5
141
2.5
143
0.0393700787
147
0.625
171
     3
172
     1
271
     2
272
     2
274
     3
278
    44
283
     0
284
     8
340
11
  0
ENDTAB
  0
TABLE
  2
BLOCK_RECORD
  5
1
330
0
100
AcDbSymbolTable
 70
     1
  0
BLOCK_RECORD
  5
1F
330
1
100
AcDbSymbolTableRecord
100
AcDbBlockTableRecord
  2
*Model_Space
340
22
  0
BLOCK_RECORD
  5
1B
330
1
100
AcDbSymbolTableRecord
100
AcDbBlockTableRecord
  2
*Paper_Space
340
1E
  0
BLOCK_RECORD
  5
23
330
1
100
AcDbSymbolTableRecord
100
AcDbBlockTableRecord
  2
*Paper_Space0
340
26
  0
ENDTAB
  0
ENDSEC
  0
SECTION
  2
BLOCKS
  0
BLOCK
  5
20
330
1F
100
AcDbEntity
  8
0
100
AcDbBlockBegin
  2
*Model_Space
 70
     0
 10
0.0
 20
0.0
 30
0.0
  3
*Model_Space
  1

  0
ENDBLK
  5
21
330
1F
100
AcDbEntity
  8
0
100
AcDbBlockEnd
  0
BLOCK
  5
1C
330
1B
100
AcDbEntity
 67
     1
  8
0
100
AcDbBlockBegin
  2
*Paper_Space
 70
     0
 10
0.0
 20
0.0
 30
0.0
  3
*Paper_Space
  1

  0
ENDBLK
  5
1D
330
1B
100
AcDbEntity
 67
     1
  8
0
100
AcDbBlockEnd
  0
BLOCK
  5
24
330
23
100
AcDbEntity
  8
0
100
AcDbBlockBegin
  2
*Paper_Space0
 70
     0
 10
0.0
 20
0.0
 30
0.0
  3
*Paper_Space0
  1

  0
ENDBLK
  5
25
330
23
100
AcDbEntity
  8
0
100
AcDbBlockEnd
  0
ENDSEC
  0
SECTION
  2
ENTITIES
  0
SPLINE
  5
40
330
1F
100
AcDbEntity
  8
0
  6
Continuous
 62
     7
370
    15
100
AcDbSpline
210
0.0
220
0.0
230
1.0
 70
    24
 71
     3
 72
     9
 73
     5
 74
     0
 42
0.00000001
 43
0.00000001
 40
0.0
 40
0.0
 40
0.0
 40
0.0
 40
0.4999999999999989
 40
1.0
 40
1.0
 40
1.0
 40
1.0
 10
161.9405809891281
 20
206.1137335012907
 30
0.0
 10
162.0031916615112
 20
206.5907674468179
 30
0.0
 10
162.1284130062774
 20
207.5448353378722
 30
0.0
 10
162.2536343510436
 20
208.4989032289266
 30
0.0
 10
162.3162450234268
 20
208.9759371744537
 30
0.0
  0
SPLINE
  5
41
330
1F
100
AcDbEntity
  8
0
  6
Continuous
 62
     7
370
    15
100
AcDbSpline
210
0.0
220
0.0
230
1.0
 70
    24
 71
     3
 72
    14
 73
    10
 74
     0
 42
0.00000001
 43
0.00000001
 40
0.0
 40
0.0
 40
0.0
 40
0.0
 40
0.1719838445755162
 40
0.3436868201855768
 40
0.5228342541826184
 40
0.723777846408817
 40
0.9513965135211725
 40
0.9912703327909539
 40
0.9999999999999999
 40
0.9999999999999999
 40
0.9999999999999999
 40
0.9999999999999999
 10
162.3162450234268
 20
208.9759371744537
 30
0.0
 10
162.3181424023621
 20
208.9767239743583
 30
0.0
 10
162.3219340615994
 20
208.9782962892348
 30
0.0
 10
162.3511583244797
 20
208.9904149265923
 30
0.0
 10
162.3950717117202
 20
209.0086248098419
 30
0.0
 10
162.4548106039163
 20
209.0333971701795
 30
0.0
 10
162.5054054996103
 20
209.0543777230696
 30
0.0
 10
162.5350467868772
 20
209.0666692909591
 30
0.0
 10
162.5402546591244
 20
209.068828877171
 30
0.0
 10
162.5411900445233
 20
209.0692167602284
 30
0.0
  0
SPLINE
  5
42
330
1F
100
AcDbEntity
  8
0
  6
Continuous
 62
     7
370
    15
100
AcDbSpline
210
0.0
220
0.0
230
1.0
 70
     8
 71
     3
 72
     9
 73
     5
 74
     0
 42
0.00000001
 43
0.00000001
 40
0.0
 40
0.0
 40
0.0
 40
0.0
 40
0.5000000000000011
 40
1.0
 40
1.0
 40
1.0
 40
1.0
 10
162.5411900445233
 20
209.0692167602285
 30
0.0
 10
162.4737874486322
 20
208.5518772195812
 30
0.0
 10
162.33898225685
 20
207.5171981382868
 30
0.0
 10
162.2022180793578
 20
206.4827761737314
 30
0.0
 10
162.1338359906117
 20
205.9655651914537
 30
0.0
  0
SPLINE
  5
43
330
1F
100
AcDbEntity
  8
0
  6
Continuous
 62
     7
370
    15
100
AcDbSpline
210
0.0
220
0.0
230
1.0
 70
    24
 71
     3
 72
    14
 73
    10
 74
     0
 42
0.00000001
 43
0.00000001
 40
0.0
 40
0.0
 40
0.0
 40
0.0
 40
0.1719838445754932
 40
0.3436868201855348
 40
0.5228342541825374
 40
0.723777846408771
 40
0.9513965135210881
 40
0.9912703327972902
 40
0.9999999999999999
 40
0.9999999999999999
 40
0.9999999999999999
 40
0.9999999999999999
 10
161.9405809891281
 20
206.1137335012907
 30
0.0
 10
161.9422110673008
 20
206.1124837228845
 30
0.0
 10
161.9454685615452
 20
206.1099862071007
 30
0.0
 10
161.9705757407962
 20
206.0907365717183
 30
0.0
 10
162.0083026559105
 20
206.0618114044264
 30
0.0
 10
162.0596255953733
 20
206.0224621863603
 30
0.0
 10
162.103092735007
 20
205.9891359978294
 30
0.0
 10
162.1285581886875
 20
205.9696116740032
 30
0.0
 10
162.1330323813315
 20
205.9661813174424
 30
0.0
 10
162.1338359906117
 20
205.9655651914537
 30
0.0
  0
CIRCLE
  5
44
330
1F
100
AcDbEntity
  8
0
  6
Continuous
 62
     7
370
    15
100
AcDbCircle
 10
159.6496719145
 20
207.8701699349
 30
0.0
 40
14.83208158365313
  0
SPLINE
  5
45
330
1F
100
AcDbEntity
  8
0
  6
Continuous
 62
     7
370
    15
100
AcDbSpline
210
0.0
220
0.0
230
1.0
 70
     8
 71
     3
 72
     9
 73
     5
 74
     0
 42
0.00000001
 43
0.00000001
 40
0.0
 40
0.0
 40
0.0
 40
0.0
 40
0.5000000000000004
 40
1.0
 40
1.0
 40
1.0
 40
1.0
 10
156.758153784503
 20
206.6711231094977
 30
0.0
 10
156.8255563803941
 20
207.1884626501449
 30
0.0
 10
156.9603615721763
 20
208.2231417314393
 30
0.0
 10
157.0971257496684
 20
209.2575636959947
 30
0.0
 10
157.1655078384146
 20
209.7747746782724
 30
0.0
  0
SPLINE
  5
46
330
1F
100
AcDbEntity
  8
0
  6
Continuous
 62
     7
370
    15
100
AcDbSpline
210
0.0
220
0.0
230
1.0
 70
     8
 71
     3
 72
     9
 73
     5
 74
     0
 42
0.00000001
 43
0.00000001
 40
0.0
 40
0.0
 40
0.0
 40
0.0
 40
0.4999999999999974
 40
1.0
 40
1.0
 40
1.0
 40
1.0
 10
159.2423178606016
 20
204.7665183660883
 30
0.0
 10
158.8279899739644
 20
205.0835604967346
 30
0.0
 10
157.9993342006902
 20
205.7176447580273
 30
0.0
 10
157.1718805898987
 20
206.3532969923409
 30
0.0
 10
156.758153784503
 20
206.6711231094977
 30
0.0
  0
SPLINE
  5
47
330
1F
100
AcDbEntity
  8
0
  6
Continuous
 62
     7
370
    15
100
AcDbSpline
210
0.0
220
0.0
230
1.0
 70
     8
 71
     3
 72
     9
 73
     5
 74
     0
 42
0.00000001
 43
0.00000001
 40
0.0
 40
0.0
 40
0.0
 40
0.0
 40
0.5000000000000004
 40
0.9999999999999999
 40
0.9999999999999999
 40
0.9999999999999999
 40
0.9999999999999999
 10
162.1338359906117
 20
205.9655651914537
 30
0.0
 10
161.6521055080835
 20
205.7652677814528
 30
0.0
 10
160.6886445430271
 20
205.364672961451
 30
0.0
 10
159.7244267547434
 20
204.9659032312092
 30
0.0
 10
159.2423178606016
 20
204.7665183660883
 30
0.0
  0
SPLINE
  5
48
330
1F
100
AcDbEntity
  8
0
  6
Continuous
 62
     7
370
    15
100
AcDbSpline
210
0.0
220
0.0
230
1.0
 70
     8
 71
     3
 72
     9
 73
     5
 74
     0
 42
0.00000001
 43
0.00000001
 40
0.0
 40
0.0
 40
0.0
 40
0.0
 40
0.5000000000001439
 40
0.9999999999999999
 40
0.9999999999999999
 40
0.9999999999999999
 40
0.9999999999999999
 10
160.0570259684247
 20
210.9738215036378
 30
0.0
 10
160.4713538550619
 20
210.6567793729914
 30
0.0
 10
161.3000096283362
 20
210.0226951116988
 30
0.0
 10
162.1274632391276
 20
209.3870428773852
 30
0.0
 10
162.5411900445233
 20
209.0692167602285
 30
0.0
  0
SPLINE
  5
49
330
1F
100
AcDbEntity
  8
0
  6
Continuous
 62
     7
370
    15
100
AcDbSpline
210
0.0
220
0.0
230
1.0
 70
     8
 71
     3
 72
     9
 73
     5
 74
     0
 42
0.00000001
 43
0.00000001
 40
0.0
 40
0.0
 40
0.0
 40
0.0
 40
0.4999999999999994
 40
1.0
 40
1.0
 40
1.0
 40
1.0
 10
157.1655078384146
 20
209.7747746782724
 30
0.0
 10
157.6472383209428
 20
209.9750720882734
 30
0.0
 10
158.6106992859992
 20
210.3756669082752
 30
0.0
 10
159.5749170742828
 20
210.7744366385169
 30
0.0
 10
160.0570259684247
 20
210.9738215036378
 30
0.0
  0
SPLINE
  5
4A
330
1F
100
AcDbEntity
  8
0
  6
Continuous
 62
     7
370
    15
100
AcDbSpline
210
0.0
220
0.0
230
1.0
 70
    24
 71
     3
 72
     9
 73
     5
 74
     0
 42
0.00000001
 43
0.00000001
 40
0.0
 40
0.0
 40
0.0
 40
0.0
 40
0.5000000000000031
 40
1.0
 40
1.0
 40
1.0
 40
1.0
 10
156.9830988055995
 20
206.7644026952724
 30
0.0
 10
157.3649169847019
 20
206.471663289677
 30
0.0
 10
158.1285533429069
 20
205.8861844784863
 30
0.0
 10
158.8921897011119
 20
205.3007056672955
 30
0.0
 10
159.2740078802144
 20
205.0079662617001
 30
0.0
  0
SPLINE
  5
4B
330
1F
100
AcDbEntity
  8
0
  6
Continuous
 62
     7
370
    15
100
AcDbSpline
210
0.0
220
0.0
230
1.0
 70
    24
 71
     3
 72
    14
 73
    10
 74
     0
 42
0.00000001
 43
0.00000001
 40
0.0
 40
0.0
 40
0.0
 40
0.0
 40
0.1719838445755143
 40
0.3436868201855639
 40
0.5228342541825844
 40
0.7237778464087906
 40
0.9513965135211383
 40
0.991270332797284
 40
1.0
 40
1.0
 40
1.0
 40
1.0
 10
159.2740078802144
 20
205.0079662617001
 30
0.0
 10
159.2737405794518
 20
205.0059296833892
 30
0.0
 10
159.273206414459
 20
205.001859852729
 30
0.0
 10
159.2690893308296
 20
204.970491579989
 30
0.0
 10
159.2629028587037
 20
204.9233565294476
 30
0.0
 10
159.2544869059688
 20
204.8592349510432
 30
0.0
 10
159.2473591499125
 20
204.8049282096243
 30
0.0
 10
159.2431833163213
 20
204.7731123179059
 30
0.0
 10
159.2424496367194
 20
204.7675223751341
 30
0.0
 10
159.2423178606016
 20
204.7665183660883
 30
0.0
  0
SPLINE
  5
4C
330
1F
100
AcDbEntity
  8
0
  6
Continuous
 62
     7
370
    15
100
AcDbSpline
210
0.0
220
0.0
230
1.0
 70
    24
 71
     3
 72
    14
 73
    10
 74
     0
 42
0.00000001
 43
0.00000001
 40
0.0
 40
0.0
 40
0.0
 40
0.0
 40
0.0087296672091545
 40
0.0486034864789018
 40
0.2762221535912543
 40
0.4771657458174111
 40
0.6563131798144534
 40
0.8280161554244991
 40
1.0
 40
1.0
 40
1.0
 40
1.0
 10
156.758153784503
 20
206.6711231094977
 30
0.0
 10
156.7590891699018
 20
206.6715109925552
 30
0.0
 10
156.764297042149
 20
206.6736705787671
 30
0.0
 10
156.7939383294163
 20
206.6859621466558
 30
0.0
 10
156.8445332251098
 20
206.7069426995469
 30
0.0
 10
156.904272117306
 20
206.7317150598842
 30
0.0
 10
156.9481855045466
 20
206.7499249431339
 30
0.0
 10
156.9774097674269
 20
206.7620435804914
 30
0.0
 10
156.9812014266642
 20
206.7636158953678
 30
0.0
 10
156.9830988055995
 20
206.7644026952724
 30
0.0
  0
SPLINE
  5
4D
330
1F
100
AcDbEntity
  8
0
  6
Continuous
 62
     7
370
    15
100
AcDbSpline
210
0.0
220
0.0
230
1.0
 70
    24
 71
     3
 72
     9
 73
     5
 74
     0
 42
0.00000001
 43
0.00000001
 40
0.0
 40
0.0
 40
0.0
 40
0.0
 40
0.4999999999998447
 40
1.0
 40
1.0
 40
1.0
 40
1.0
 10
162.3162450234268
 20
208.9759371744537
 30
0.0
 10
161.9344268443244
 20
209.268676580049
 30
0.0
 10
161.1707904861194
 20
209.8541553912398
 30
0.0
 10
160.4071541279145
 20
210.4396342024306
 30
0.0
 10
160.0253359488119
 20
210.7323736080261
 30
0.0
  0
SPLINE
  5
4E
330
1F
100
AcDbEntity
  8
0
  6
Continuous
 62
     7
370
    15
100
AcDbSpline
210
0.0
220
0.0
230
1.0
 70
    24
 71
     3
 72
    14
 73
    10
 74
     0
 42
0.00000001
 43
0.00000001
 40
0.0
 40
0.0
 40
0.0
 40
0.0
 40
0.0087296672027826
 40
0.0486034864789347
 40
0.2762221535912763
 40
0.4771657458174708
 40
0.6563131798144661
 40
0.8280161554245189
 40
1.0
 40
1.0
 40
1.0
 40
1.0
 10
160.0570259684247
 20
210.9738215036378
 30
0.0
 10
160.0568941923069
 20
210.9728174945921
 30
0.0
 10
160.0561605127048
 20
210.9672275518203
 30
0.0
 10
160.0519846791134
 20
210.9354116601019
 30
0.0
 10
160.0448569230574
 20
210.881104918683
 30
0.0
 10
160.0364409703226
 20
210.8169833402785
 30
0.0
 10
160.0302544981966
 20
210.7698482897371
 30
0.0
 10
160.0261374145673
 20
210.7384800169972
 30
0.0
 10
160.0256032495744
 20
210.7344101863369
 30
0.0
 10
160.0253359488119
 20
210.7323736080261
 30
0.0
  0
SPLINE
  5
4F
330
1F
100
AcDbEntity
  8
0
  6
Continuous
 62
     7
370
    15
100
AcDbSpline
210
0.0
220
0.0
230
1.0
 70
    24
 71
     3
 72
     9
 73
     5
 74
     0
 42
0.00000001
 43
0.00000001
 40
0.0
 40
0.0
 40
0.0
 40
0.0
 40
0.5000000000000007
 40
1.0
 40
1.0
 40
1.0
 40
1.0
 10
160.0253359488119
 20
210.7323736080261
 30
0.0
 10
159.5809070973262
 20
210.5480790680943
 30
0.0
 10
158.692049394355
 20
210.1794899882308
 30
0.0
 10
157.8031916913838
 20
209.8109009083672
 30
0.0
 10
157.3587628398982
 20
209.6266063684354
 30
0.0
  0
SPLINE
  5
50
330
1F
100
AcDbEntity
  8
0
  6
Continuous
 62
     7
370
    15
100
AcDbSpline
210
0.0
220
0.0
230
1.0
 70
    24
 71
     3
 72
    14
 73
    10
 74
     0
 42
0.00000001
 43
0.00000001
 40
0.0
 40
0.0
 40
0.0
 40
0.0
 40
0.0087296672027819
 40
0.0486034864789327
 40
0.2762221535912527
 40
0.4771657458174871
 40
0.6563131798144608
 40
0.8280161554245165
 40
1.0
 40
1.0
 40
1.0
 40
1.0
 10
157.1655078384146
 20
209.7747746782724
 30
0.0
 10
157.1663114476949
 20
209.774158552284
 30
0.0
 10
157.17078564034
 20
209.7707281957246
 30
0.0
 10
157.1962510940164
 20
209.7512038718932
 30
0.0
 10
157.239718233654
 20
209.7178776833672
 30
0.0
 10
157.2910411731155
 20
209.6785284652995
 30
0.0
 10
157.3287680882301
 20
209.6496032980079
 30
0.0
 10
157.3538752674811
 20
209.6303536626255
 30
0.0
 10
157.3571327617255
 20
209.6278561468417
 30
0.0
 10
157.3587628398982
 20
209.6266063684354
 30
0.0
  0
SPLINE
  5
51
330
1F
100
AcDbEntity
  8
0
  6
Continuous
 62
     7
370
    15
100
AcDbSpline
210
0.0
220
0.0
230
1.0
 70
    24
 71
     3
 72
     9
 73
     5
 74
     0
 42
0.00000001
 43
0.00000001
 40
0.0
 40
0.0
 40
0.0
 40
0.0
 40
0.4999999999999997
 40
1.0
 40
1.0
 40
1.0
 40
1.0
 10
157.3587628398982
 20
209.6266063684354
 30
0.0
 10
157.2961521675151
 20
209.1495724229082
 30
0.0
 10
157.1709308227488
 20
208.1955045318539
 30
0.0
 10
157.0457094779826
 20
207.2414366407996
 30
0.0
 10
156.9830988055995
 20
206.7644026952724
 30
0.0
  0
SPLINE
  5
52
330
1F
100
AcDbEntity
  8
0
  6
Continuous
 62
     7
370
    15
100
AcDbSpline
210
0.0
220
0.0
230
1.0
 70
    24
 71
     3
 72
     9
 73
     5
 74
     0
 42
0.00000001
 43
0.00000001
 40
0.0
 40
0.0
 40
0.0
 40
0.0
 40
0.4999999999999996
 40
1.0
 40
1.0
 40
1.0
 40
1.0
 10
159.2740078802144
 20
205.0079662617001
 30
0.0
 10
159.7184367317
 20
205.1922608016318
 30
0.0
 10
160.6072944346712
 20
205.5608498814954
 30
0.0
 10
161.4961521376424
 20
205.929438961359
 30
0.0
 10
161.9405809891281
 20
206.1137335012907
 30
0.0
  0
CIRCLE
  5
53
330
1F
100
AcDbEntity
  8
0
  6
Continuous
 62
     7
370
    15
100
AcDbCircle
 10
159.6496719145
 20
207.8701699349
 30
0.0
 40
15.0
  0
CIRCLE
  5
54
330
1F
100
AcDbEntity
  8
0
  6
Continuous
 62
     7
370
    15
100
AcDbCircle
 10
159.6496719145
 20
207.8701699349
 30
0.0
 40
20.0
  0
LINE
  5
55
330
1F
100
AcDbEntity
  8
0
  6
Continuous
 62
     7
370
    15
100
AcDbLine
 10
326.789162472
 20
222.8701699349
 30
0.0
 11
325.4591616233
 21
222.8701699349
 31
0.0
  0
LINE
  5
56
330
1F
100
AcDbEntity
  8
0
  6
Continuous
 62
     7
370
    15
100
AcDbLine
 10
325.4591616233
 20
192.8701699349
 30
0.0
 11
326.789162472
 21
192.8701699349
 31
0.0
  0
ARC
  5
57
330
1F
100
AcDbEntity
  8
0
  6
Continuous
 62
     7
370
    15
100
AcDbCircle
 10
326.789162472
 20
193.0701699349
 30
0.0
 40
0.2000000000000171
100
AcDbArc
 50
270.0
 51
350.7694259592
  0
ARC
  5
58
330
1F
100
AcDbEntity
  8
0
  6
Continuous
 62
     7
370
    15
100
AcDbCircle
 10
326.789162472
 20
222.6701699349
 30
0.0
 40
0.1999999999999886
100
AcDbArc
 50
9.2305740408
 51
90.0
  0
ARC
  5
59
330
1F
100
AcDbEntity
  8
0
  6
Continuous
 62
     7
370
    15
100
AcDbCircle
 10
208.540475541
 20
212.2870385431
 30
0.0
 40
120.0000000000001
100
AcDbArc
 50
350.7694259592
 51
356.4874017299
  0
ARC
  5
5A
330
1F
100
AcDbEntity
  8
0
  6
Continuous
 62
     7
370
    15
100
AcDbCircle
 10
208.540475541
 20
203.4533013266
 30
0.0
 40
120.0000000000001
100
AcDbArc
 50
3.5125959396
 51
9.2305740408
  0
LINE
  5
5B
330
1F
100
AcDbEntity
  8
0
  6
Continuous
 62
     7
370
    15
100
AcDbLine
 10
317.4591616233
 20
187.8701699349
 30
0.0
 11
325.4591616233
 21
187.8701699349
 31
0.0
  0
LINE
  5
5C
330
1F
100
AcDbEntity
  8
0
  6
Continuous
 62
     7
370
    15
100
AcDbLine
 10
325.4591616233
 20
227.8701699349
 30
0.0
 11
317.4591616233
 21
227.8701699349
 31
0.0
  0
LINE
  5
5D
330
1F
100
AcDbEntity
  8
0
  6
Continuous
 62
     7
370
    15
100
AcDbLine
 10
286.6591616233
 20
223.8701699349
 30
0.0
 11
284.8591616233
 21
222.0701699349
 31
0.0
  0
LINE
  5
5E
330
1F
100
AcDbEntity
  8
0
  6
Continuous
 62
     7
370
    15
100
AcDbLine
 10
284.8591616233
 20
193.6701699349
 30
0.0
 11
286.6591616233
 21
191.8701699349
 31
0.0
  0
LINE
  5
5F
330
1F
100
AcDbEntity
  8
0
  6
Continuous
 62
     7
370
    15
100
AcDbLine
 10
286.6591616233
 20
191.8701699349
 30
0.0
 11
317.4591616233
 21
191.8701699349
 31
0.0
  0
LINE
  5
60
330
1F
100
AcDbEntity
  8
0
  6
Continuous
 62
     7
370
    15
100
AcDbLine
 10
317.4591616233
 20
223.8701699349
 30
0.0
 11
286.6591616233
 21
223.8701699349
 31
0.0
  0
SPLINE
  5
61
330
1F
100
AcDbEntity
  8
0
  6
Continuous
 62
     7
370
    15
100
AcDbSpline
210
0.0
220
0.0
230
1.0
 70
     8
 71
     3
 72
     9
 73
     5
 74
     0
 42
0.00000001
 43
0.00000001
 40
0.0
 40
0.0
 40
0.0
 40
0.0
 40
0.5000000000000004
 40
1.0
 40
1.0
 40
1.0
 40
1.0
 10
328.3029099625147
 20
206.6711231094977
 30
0.0
 10
328.3157261054089
 20
207.1884626501449
 30
0.0
 10
328.3413583911973
 20
208.2231417314393
 30
0.0
 10
328.3157261054089
 20
209.2575636959947
 30
0.0
 10
328.3029099625147
 20
209.7747746782724
 30
0.0
  0
SPLINE
  5
62
330
1F
100
AcDbEntity
  8
0
  6
Continuous
 62
     7
370
    15
100
AcDbSpline
210
0.0
220
0.0
230
1.0
 70
     8
 71
     3
 72
     9
 73
     5
 74
     0
 42
0.00000001
 43
0.00000001
 40
0.0
 40
0.0
 40
0.0
 40
0.0
 40
0.4999999999999974
 40
1.0
 40
1.0
 40
1.0
 40
1.0
 10
328.3029099625147
 20
204.7665183660883
 30
0.0
 10
328.3157261054089
 20
205.0835604967346
 30
0.0
 10
328.3413583911974
 20
205.7176447580273
 30
0.0
 10
328.3157261054089
 20
206.3532969923409
 30
0.0
 10
328.3029099625147
 20
206.6711231094977
 30
0.0
  0
LINE
  5
63
330
1F
100
AcDbEntity
  8
0
  6
Continuous
 62
     7
370
    15
100
AcDbLine
 10
328.3101300761
 20
204.9351353407
 30
0.0
 11
328.3029099625
 21
204.7665183661
 31
0.0
  0
SPLINE
  5
64
330
1F
100
AcDbEntity
  8
0
  6
Continuous
 62
     7
370
    15
100
AcDbSpline
210
0.0
220
0.0
230
1.0
 70
     8
 71
     3
 72
     9
 73
     5
 74
     0
 42
0.00000001
 43
0.00000001
 40
0.0
 40
0.0
 40
0.0
 40
0.0
 40
0.2404492120367016
 40
1.0
 40
1.0
 40
1.0
 40
1.0
 10
328.3227135804786
 20
207.8701699348628
 30
0.0
 10
328.3251236359487
 20
207.7525317526669
 30
0.0
 10
328.3351467732658
 20
207.2632883852236
 30
0.0
 10
328.320929166456
 20
206.7741665968922
 30
0.0
 10
328.3101301720008
 20
206.4026537571551
 30
0.0
  0
SPLINE
  5
65
330
1F
100
AcDbEntity
  8
0
  6
Continuous
 62
     7
370
    15
100
AcDbSpline
210
0.0
220
0.0
230
1.0
 70
     8
 71
     3
 72
     9
 73
     5
 74
     0
 42
0.00000001
 43
0.00000001
 40
0.0
 40
0.0
 40
0.0
 40
0.0
 40
0.2404492120369554
 40
1.0
 40
1.0
 40
1.0
 40
1.0
 10
328.3227135804786
 20
210.2386741686863
 30
0.0
 10
328.3251236359487
 20
210.1665647739702
 30
0.0
 10
328.3351467732658
 20
209.8666702802213
 30
0.0
 10
328.320929166456
 20
209.5660343615151
 30
0.0
 10
328.3101301720008
 20
209.3376861125717
 30
0.0
  0
SPLINE
  5
66
330
1F
100
AcDbEntity
  8
0
  6
Continuous
 62
     7
370
    15
100
AcDbSpline
210
0.0
220
0.0
230
1.0
 70
     8
 71
     3
 72
     9
 73
     5
 74
     0
 42
0.00000001
 43
0.00000001
 40
0.0
 40
0.0
 40
0.0
 40
0.0
 40
0.5819982167488831
 40
1.0
 40
1.0
 40
1.0
 40
1.0
 10
328.3029099625147
 20
209.7747746782724
 30
0.0
 10
328.3164267059842
 20
209.9750970306243
 30
0.0
 10
328.3396514222815
 20
210.3192945669516
 30
0.0
 10
328.3188342754754
 20
210.6619241519455
 30
0.0
 10
328.3101326709882
 20
210.8051439294675
 30
0.0
  0
LINE
  5
67
330
1F
100
AcDbEntity
  8
0
  6
Continuous
 62
     7
370
    15
100
AcDbLine
 10
317.4591616233
 20
227.8701699349
 30
0.0
 11
317.4591616233
 21
187.8701699349
 31
0.0
  0
LINE
  5
68
330
1F
100
AcDbEntity
  8
0
  6
Continuous
 62
     7
370
    15
100
AcDbLine
 10
325.4591616233
 20
227.8701699349
 30
0.0
 11
325.4591616233
 21
187.8701699349
 31
0.0
  0
LINE
  5
69
330
1F
100
AcDbEntity
  8
0
  6
Continuous
 62
     7
370
    15
100
AcDbLine
 10
286.6591616233
 20
223.8701699349
 30
0.0
 11
286.6591616233
 21
191.8701699349
 31
0.0
  0
LINE
  5
6A
330
1F
100
AcDbEntity
  8
0
  6
Continuous
 62
     7
370
    15
100
AcDbLine
 10
284.8591616233
 20
193.6701699349
 30
0.0
 11
284.8591616233
 21
222.0701699349
 31
0.0
  0
SPLINE
  5
6B
330
1F
100
AcDbEntity
  8
0
  6
Continuous
 62
     7
370
    15
100
AcDbSpline
210
0.0
220
0.0
230
1.0
 70
     8
 71
     3
 72
   105
 73
   101
 74
     0
 42
0.00000001
 43
0.00000001
 40
-0.03125
 40
-0.03125
 40
0.0
 40
0.0
 40
0.0312499999999997
 40
0.0312499999999997
 40
0.0468749999999996
 40
0.0468749999999996
 40
0.0624999999999995
 40
0.0624999999999995
 40
0.0781249999999993
 40
0.0781249999999993
 40
0.0937499999999992
 40
0.0937499999999992
 40
0.1249999999999989
 40
0.1249999999999989
 40
0.1406249999999988
 40
0.1406249999999988
 40
0.1562499999999986
 40
0.1562499999999986
 40
0.1874999999999983
 40
0.1874999999999983
 40
0.2031249999999982
 40
0.2031249999999982
 40
0.2187499999999981
 40
0.2187499999999981
 40
0.234374999999998
 40
0.234374999999998
 40
0.242187499999998
 40
0.242187499999998
 40
0.2499999999999979
 40
0.2499999999999979
 40
0.2656249999999981
 40
0.2656249999999981
 40
0.2812499999999981
 40
0.2812499999999981
 40
0.3124999999999982
 40
0.3124999999999982
 40
0.3281249999999983
 40
0.3281249999999983
 40
0.3437499999999983
 40
0.3437499999999983
 40
0.3749999999999986
 40
0.3749999999999986
 40
0.4062499999999988
 40
0.4062499999999988
 40
0.4218749999999989
 40
0.4218749999999989
 40
0.437499999999999
 40
0.437499999999999
 40
0.4687499999999992
 40
0.4687499999999992
 40
0.4843749999999992
 40
0.4843749999999992
 40
0.4999999999999993
 40
0.5156249999999994
 40
0.5156249999999994
 40
0.5312499999999996
 40
0.5312499999999996
 40
0.5624999999999997
 40
0.5624999999999997
 40
0.5937499999999999
 40
0.5937499999999999
 40
0.6093749999999999
 40
0.6093749999999999
 40
0.625
 40
0.625
 40
0.6562500000000001
 40
0.6562500000000001
 40
0.6875000000000001
 40
0.6875000000000001
 40
0.7031250000000002
 40
0.7031250000000002
 40
0.7187500000000003
 40
0.7187500000000003
 40
0.7343750000000004
 40
0.7343750000000004
 40
0.7500000000000004
 40
0.7500000000000004
 40
0.7656250000000004
 40
0.7656250000000004
 40
0.7812500000000004
 40
0.7812500000000004
 40
0.8125000000000004
 40
0.8125000000000004
 40
0.8281250000000003
 40
0.8281250000000003
 40
0.8437500000000003
 40
0.8437500000000003
 40
0.8750000000000003
 40
0.8750000000000003
 40
0.8906250000000003
 40
0.8906250000000003
 40
0.9062500000000001
 40
0.9062500000000001
 40
0.9375000000000001
 40
0.9375000000000001
 40
0.9531250000000001
 40
0.9531250000000001
 40
0.96875
 40
0.96875
 40
1.0
 40
1.0
 40
1.03125
 40
1.03125
 10
288.2591616233148
 20
206.9899774416162
 30
0.0
 10
288.2591616233148
 20
208.7503624281099
 30
0.0
 10
288.3503267838095
 20
209.6092134240021
 30
0.0
 10
288.6135181026478
 20
210.8681726182393
 30
0.0
 10
288.7232970258769
 20
211.285241881327
 30
0.0
 10
288.9820239511774
 20
212.0981158479474
 30
0.0
 10
289.1298835875042
 20
212.4915166350897
 30
0.0
 10
289.459996009812
 20
213.2545762977762
 30
0.0
 10
289.6422586540274
 20
213.6242262442789
 30
0.0
 10
290.0400316481587
 20
214.341221071658
 30
0.0
 10
290.2567438469599
 20
214.6901023201336
 30
0.0
 10
290.9437005420098
 20
215.6864729817799
 30
0.0
 10
291.4517903196482
 20
216.2888047019194
 30
0.0
 10
292.2870401186577
 20
217.1130993652941
 30
0.0
 10
292.577780972132
 20
217.3745258858426
 30
0.0
 10
293.1853822444524
 20
217.8715277215464
 30
0.0
 10
293.5022129591752
 20
218.1068052510507
 30
0.0
 10
294.4771826379481
 20
218.7625493445219
 30
0.0
 10
295.1645073987065
 20
219.1383540626503
 30
0.0
 10
296.2685900104807
 20
219.6109926205326
 30
0.0
 10
296.6489619868608
 20
219.7532058459039
 30
0.0
 10
297.4402379866893
 20
220.0045543283462
 30
0.0
 10
297.8465205691052
 20
220.1120004534937
 30
0.0
 10
298.6731458669249
 20
220.286278652219
 30
0.0
 10
299.0949706607205
 20
220.3536049291368
 30
0.0
 10
299.7426004640579
 20
220.4224773295148
 30
0.0
 10
299.962042210248
 20
220.4400985054233
 30
0.0
 10
300.3992539555764
 20
220.4636766922139
 30
0.0
 10
300.6172431135398
 20
220.4697227113984
 30
0.0
 10
301.2693864978999
 20
220.470992705165
 30
0.0
 10
301.7017143316756
 20
220.4493950846336
 30
0.0
 10
302.5617028028396
 20
220.3620934843813
 30
0.0
 10
302.9923257673606
 20
220.2955253305882
 30
0.0
 10
304.238278191175
 20
220.0381999776795
 30
0.0
 10
305.0196495753404
 20
219.7910571600477
 30
0.0
 10
306.1396666388099
 20
219.317465241614
 30
0.0
 10
306.5013851563212
 20
219.1432175487713
 30
0.0
 10
307.1969912569712
 20
218.7673349073044
 30
0.0
 10
307.5323153891953
 20
218.5650816823326
 30
0.0
 10
308.5053603201472
 20
217.9152741834781
 30
0.0
 10
309.1109102459222
 20
217.4250390894902
 30
0.0
 10
310.2420936486283
 20
216.316912887096
 30
0.0
 10
310.7515833290834
 20
215.7146727721288
 30
0.0
 10
311.4342744812254
 20
214.732097217676
 30
0.0
 10
311.6481005977955
 20
214.3912780027496
 30
0.0
 10
312.046913903593
 20
213.6805273716523
 30
0.0
 10
312.232503785479
 20
213.30924361599
 30
0.0
 10
312.7379839586441
 20
212.1549473749688
 30
0.0
 10
312.9992466090632
 20
211.3513454090634
 30
0.0
 10
313.269639675757
 20
210.0894256762528
 30
0.0
 10
313.3395893341731
 20
209.6558965683129
 30
0.0
 10
313.4331396674992
 20
208.7893920159587
 30
0.0
 10
313.4813523988511
 20
207.9227488542453
 30
0.0
 10
313.4403643499771
 20
207.0558322940147
 30
0.0
 10
313.3540696343353
 20
206.1887771673
 30
0.0
 10
313.2876832980133
 20
205.7540995942448
 30
0.0
 10
313.0270947095415
 20
204.4871205369547
 30
0.0
 10
312.7711268460584
 20
203.677924715801
 30
0.0
 10
312.1069356615128
 20
202.1293150655738
 30
0.0
 10
311.7093805700287
 20
201.413777723363
 30
0.0
 10
311.0245761772894
 20
200.4144734656571
 30
0.0
 10
310.7802873265811
 20
200.0925794817877
 30
0.0
 10
310.26757710461
 20
199.4796177118503
 30
0.0
 10
309.9996450686407
 20
199.1888084481743
 30
0.0
 10
309.1613839483753
 20
198.3595966623084
 30
0.0
 10
308.5572908008422
 20
197.8639318823264
 30
0.0
 10
307.2451053368496
 20
196.9795448065476
 30
0.0
 10
306.5525532958378
 20
196.6011592112991
 30
0.0
 10
305.444660296495
 20
196.1273197793684
 30
0.0
 10
305.0636398685439
 20
195.9851201217884
 30
0.0
 10
304.2728861419819
 20
195.7343332811946
 30
0.0
 10
303.8641132927921
 20
195.6264180944839
 30
0.0
 10
303.0355767926876
 20
195.4523436083595
 30
0.0
 10
302.6133665614306
 20
195.3853417836294
 30
0.0
 10
301.7505921067062
 20
195.294259605029
 30
0.0
 10
301.3073826045579
 20
195.2705917029335
 30
0.0
 10
300.4349755952971
 20
195.2697596286797
 30
0.0
 10
300.0020370784028
 20
195.2919327413611
 30
0.0
 10
299.1423500029769
 20
195.3802031117782
 30
0.0
 10
298.7120856318429
 20
195.4471694840703
 30
0.0
 10
297.4628865728894
 20
195.7067486301452
 30
0.0
 10
296.6816757483198
 20
195.9552977615523
 30
0.0
 10
295.5636998715286
 20
196.4298038296679
 30
0.0
 10
295.2004931588986
 20
196.6053327061413
 30
0.0
 10
294.5036945609282
 20
196.9832454380783
 30
0.0
 10
294.1680938780796
 20
197.1864391998796
 30
0.0
 10
293.1949772684594
 20
197.8387075225018
 30
0.0
 10
292.5906148511015
 20
198.3298922315069
 30
0.0
 10
291.7444008977643
 20
199.1616925701729
 30
0.0
 10
291.4740105203842
 20
199.4537591125238
 30
0.0
 10
290.9636849765014
 20
200.0601395707992
 30
0.0
 10
290.7225420217611
 20
200.3756121544549
 30
0.0
 10
290.0412220976689
 20
201.3609459026618
 30
0.0
 10
289.6424557332238
 20
202.0690950496769
 30
0.0
 10
289.1389534678481
 20
203.2254459382603
 30
0.0
 10
288.9890171185586
 20
203.6228660065856
 30
0.0
 10
288.7302492975007
 20
204.4307794342554
 30
0.0
 10
288.620641074504
 20
204.8430032473219
 30
0.0
 10
288.3536535123311
 20
206.105868260713
 30
0.0
 10
288.2591616233148
 20
206.9899774416162
 30
0.0
 10
288.2591616233148
 20
208.7503624281099
 30
0.0
  0
LINE
  5
6C
330
1F
100
AcDbEntity
  8
0
  6
Continuous
 62
     8
370
    15
100
AcDbLine
 10
326.789162472
 20
202.1244348139
 30
0.0
 11
326.789162472
 21
222.8701699349
 31
0.0
  0
LINE
  5
6D
330
1F
100
AcDbEntity
  8
0
  6
Continuous
 62
     8
370
    15
100
AcDbLine
 10
326.789162472
 20
192.8701699349
 30
0.0
 11
326.789162472
 21
202.1244348139
 31
0.0
  0
LINE
  5
6E
330
1F
100
AcDbEntity
  8
0
  6
Continuous
 62
     8
370
    15
100
AcDbLine
 10
326.9865726338
 20
202.1887557967
 30
0.0
 11
326.9865726338
 21
193.0380883512
 31
0.0
  0
LINE
  5
6F
330
1F
100
AcDbEntity
  8
0
  6
Continuous
 62
     8
370
    15
100
AcDbLine
 10
326.9865726338
 20
222.7022515185
 30
0.0
 11
326.9865726338
 21
202.1887557967
 31
0.0
  0
LINE
  5
70
330
1F
100
AcDbEntity
  8
0
  6
Continuous
 62
     7
370
    15
100
AcDbLine
 10
174.6496719145
 20
59.7289234576
 30
0.0
 11
174.6496719145
 21
61.0589243063
 31
0.0
  0
LINE
  5
71
330
1F
100
AcDbEntity
  8
0
  6
Continuous
 62
     7
370
    15
100
AcDbLine
 10
144.6496719145
 20
61.0589243063
 30
0.0
 11
144.6496719145
 21
59.7289234576
 31
0.0
  0
ARC
  5
72
330
1F
100
AcDbEntity
  8
0
  6
Continuous
 62
     7
370
    15
100
AcDbCircle
 10
144.8496719145
 20
59.7289234576
 30
0.0
 40
0.2000000000000171
100
AcDbArc
 50
180.0
 51
260.7694259592
  0
ARC
  5
73
330
1F
100
AcDbEntity
  8
0
  6
Continuous
 62
     7
370
    15
100
AcDbCircle
 10
174.4496719145
 20
59.7289234576
 30
0.0
 40
0.2000000000000064
100
AcDbArc
 50
279.2305740408
 51
0.0
  0
ARC
  5
74
330
1F
100
AcDbEntity
  8
0
  6
Continuous
 62
     7
370
    15
100
AcDbCircle
 10
164.0665405227
 20
177.9776103885
 30
0.0
 40
120.0
100
AcDbArc
 50
260.7694259592
 51
266.583136077
  0
ARC
  5
75
330
1F
100
AcDbEntity
  8
0
  6
Continuous
 62
     7
370
    15
100
AcDbCircle
 10
155.2328033063
 20
177.9776103885
 30
0.0
 40
120.0
100
AcDbArc
 50
273.4168916927
 51
279.2305740408
  0
LINE
  5
76
330
1F
100
AcDbEntity
  8
0
  6
Continuous
 62
     7
370
    15
100
AcDbLine
 10
139.6496719145
 20
69.0589243063
 30
0.0
 11
139.6496719145
 21
61.0589243063
 31
0.0
  0
LINE
  5
77
330
1F
100
AcDbEntity
  8
0
  6
Continuous
 62
     7
370
    15
100
AcDbLine
 10
179.6496719145
 20
61.0589243063
 30
0.0
 11
179.6496719145
 21
69.0589243063
 31
0.0
  0
LINE
  5
78
330
1F
100
AcDbEntity
  8
0
  6
Continuous
 62
     7
370
    15
100
AcDbLine
 10
175.6496719145
 20
99.8589243063
 30
0.0
 11
173.8496719145
 21
101.6589243063
 31
0.0
  0
LINE
  5
79
330
1F
100
AcDbEntity
  8
0
  6
Continuous
 62
     7
370
    15
100
AcDbLine
 10
145.4496719145
 20
101.6589243063
 30
0.0
 11
143.6496719145
 21
99.8589243063
 31
0.0
  0
LINE
  5
7A
330
1F
100
AcDbEntity
  8
0
  6
Continuous
 62
     7
370
    15
100
AcDbLine
 10
143.6496719145
 20
73.0607732015
 30
0.0
 11
143.6496719145
 21
69.0589243063
 31
0.0
  0
LINE
  5
7B
330
1F
100
AcDbEntity
  8
0
  6
Continuous
 62
     7
370
    15
100
AcDbLine
 10
143.6496719145
 20
99.8589243063
 30
0.0
 11
143.6496719145
 21
98.2589243063
 31
0.0
  0
LINE
  5
7C
330
1F
100
AcDbEntity
  8
0
  6
Continuous
 62
     7
370
    15
100
AcDbLine
 10
175.6496719145
 20
98.2589243063
 30
0.0
 11
175.6496719145
 21
99.8589243063
 31
0.0
  0
LINE
  5
7D
330
1F
100
AcDbEntity
  8
0
  6
Continuous
 62
     7
370
    15
100
AcDbLine
 10
175.6496719145
 20
69.0589243063
 30
0.0
 11
175.6496719145
 21
73.0607732015
 31
0.0
  0
SPLINE
  5
7E
330
1F
100
AcDbEntity
  8
0
  6
Continuous
 62
     7
370
    15
100
AcDbSpline
210
0.0
220
0.0
230
1.0
 70
     8
 71
     3
 72
     9
 73
     5
 74
     0
 42
0.00000001
 43
0.00000001
 40
0.0
 40
0.0
 40
0.0
 40
0.0
 40
0.1852699604296514
 40
1.0
 40
1.0
 40
1.0
 40
1.0
 10
156.9147578124139
 20
58.19537247406268
 30
0.0
 10
156.9301085589796
 20
58.19306957639941
 30
0.0
 10
157.0129646600447
 20
58.18063961928203
 30
0.0
 10
157.0970229910601
 20
58.19967074073496
 30
0.0
 10
157.1655078384146
 20
58.21517596706935
 30
0.0
  0
SPLINE
  5
7F
330
1F
100
AcDbEntity
  8
0
  6
Continuous
 62
     7
370
    15
100
AcDbSpline
210
0.0
220
0.0
230
1.0
 70
     8
 71
     3
 72
     9
 73
     5
 74
     0
 42
0.00000001
 43
0.00000001
 40
0.0
 40
0.0
 40
0.0
 40
0.0
 40
0.2404492120364559
 40
1.0
 40
1.0
 40
1.0
 40
1.0
 10
158.282215357538
 20
58.19537234910533
 30
0.0
 10
158.1880108636729
 20
58.1929622936353
 30
0.0
 10
157.796225450582
 20
58.18293915631826
 30
0.0
 10
157.4050084868558
 20
58.19715676312794
 30
0.0
 10
157.1078593337929
 20
58.20795575758319
 30
0.0
  0
SPLINE
  5
80
330
1F
100
AcDbEntity
  8
0
  6
Continuous
 62
     7
370
    15
100
AcDbSpline
210
0.0
220
0.0
230
1.0
 70
     8
 71
     3
 72
     9
 73
     5
 74
     0
 42
0.00000001
 43
0.00000001
 40
0.0
 40
0.0
 40
0.0
 40
0.0
 40
0.240449212036548
 40
1.0
 40
1.0
 40
1.0
 40
1.0
 10
161.0171284714873
 20
58.19537234910535
 30
0.0
 10
160.9075776568792
 20
58.19296229363533
 30
0.0
 10
160.4519687002924
 20
58.18293915631826
 30
0.0
 10
159.9960018755397
 20
58.19715676312795
 30
0.0
 10
159.6496719145137
 20
58.20795575758321
 30
0.0
  0
LINE
  5
81
330
1F
100
AcDbEntity
  8
0
  6
Continuous
 62
     7
370
    15
100
AcDbLine
 10
162.5411900445
 20
58.2151759671
 30
0.0
 11
162.3846116714
 21
58.1953757183
 31
0.0
  0
SPLINE
  5
82
330
1F
100
AcDbEntity
  8
0
  6
Continuous
 62
     7
370
    15
100
AcDbSpline
210
0.0
220
0.0
230
1.0
 70
     8
 71
     3
 72
     9
 73
     5
 74
     0
 42
0.00000001
 43
0.00000001
 40
0.0
 40
0.0
 40
0.0
 40
0.0
 40
0.5000000000001437
 40
1.0
 40
1.0
 40
1.0
 40
1.0
 10
160.0570259684247
 20
58.21517596706935
 30
0.0
 10
160.4713538550619
 20
58.2023598241751
 30
0.0
 10
161.3000096283362
 20
58.17672753838664
 30
0.0
 10
162.1274632391276
 20
58.20235982417513
 30
0.0
 10
162.5411900445233
 20
58.21517596706936
 30
0.0
  0
SPLINE
  5
83
330
1F
100
AcDbEntity
  8
0
  6
Continuous
 62
     7
370
    15
100
AcDbSpline
210
0.0
220
0.0
230
1.0
 70
     8
 71
     3
 72
     9
 73
     5
 74
     0
 42
0.00000001
 43
0.00000001
 40
0.0
 40
0.0
 40
0.0
 40
0.0
 40
0.4999999999999997
 40
1.0
 40
1.0
 40
1.0
 40
1.0
 10
157.1655078384146
 20
58.21517596706935
 30
0.0
 10
157.6472383209428
 20
58.20235982417512
 30
0.0
 10
158.6106992859992
 20
58.17672753838664
 30
0.0
 10
159.5749170742828
 20
58.20235982417512
 30
0.0
 10
160.0570259684247
 20
58.21517596706937
 30
0.0
  0
LINE
  5
84
330
1F
100
AcDbEntity
  8
0
  6
Continuous
 62
     7
370
    15
100
AcDbLine
 10
179.6496719145
 20
69.0589243063
 30
0.0
 11
139.6496719145
 21
69.0589243063
 31
0.0
  0
LINE
  5
85
330
1F
100
AcDbEntity
  8
0
  6
Continuous
 62
     7
370
    15
100
AcDbLine
 10
179.6496719145
 20
61.0589243063
 30
0.0
 11
139.6496719145
 21
61.0589243063
 31
0.0
  0
LINE
  5
86
330
1F
100
AcDbEntity
  8
0
  6
Continuous
 62
     7
370
    15
100
AcDbLine
 10
175.6496719145
 20
99.8589243063
 30
0.0
 11
143.6496719145
 21
99.8589243063
 31
0.0
  0
LINE
  5
87
330
1F
100
AcDbEntity
  8
0
  6
Continuous
 62
     7
370
    15
100
AcDbLine
 10
145.4496719145
 20
101.6589243063
 30
0.0
 11
173.8496719145
 21
101.6589243063
 31
0.0
  0
LWPOLYLINE
  5
88
330
1F
100
AcDbEntity
  8
0
  6
Continuous
 62
     7
370
    15
100
AcDbPolyline
 90
       46
 70
   128
 43
0.0
 10
175.6482157661
 20
73.0607732015
 10
175.626345547
 20
73.0885419872
 10
175.5513982764
 20
73.1839533127
 10
175.4403043679
 20
73.3258668399
 10
175.2903721315
 20
73.5184340658
 10
175.0989007333
 20
73.7661165515
 10
174.8725851902
 20
74.0616363216
 10
174.6009503463
 20
74.4205547756
 10
174.2990377475
 20
74.8254613646
 10
173.9642255675
 20
75.2826661668
 10
173.6071041243
 20
75.7811758842
 10
173.166759201
 20
76.4137921264
 10
172.7097731665
 20
77.0958498167
 10
172.234268846
 20
77.8401312925
 10
171.7584763791
 20
78.6316100568
 10
171.30979759
 20
79.4363684208
 10
170.8803460288
 20
80.284164678
 10
170.4728510382
 20
81.1977463276
 10
170.1142030757
 20
82.1565804592
 10
169.912719351
 20
82.8147271018
 10
169.7463452964
 20
83.4903272064
 10
169.6183315262
 20
84.1987831517
 10
169.538444412
 20
84.9187746551
 10
169.5108916666
 20
85.6285511416
 10
169.5341004172
 20
86.3385762941
 10
169.6108189337
 20
87.0668102046
 10
169.7370090519
 20
87.7836291148
 10
169.9415848117
 20
88.6054697333
 10
170.1968985108
 20
89.4011146908
 10
170.5013217601
 20
90.1886913112
 10
170.8382491226
 20
90.945157364
 10
171.3486787545
 20
91.9541667361
 10
171.8851181401
 20
92.90227604
 10
172.4456627592
 20
93.8136702635
 10
173.0002813317
 20
94.6588560732
 10
173.5261424659
 20
95.4220049388
 10
174.0202823675
 20
96.112366074
 10
174.4857200771
 20
96.7435694704
 10
174.8901807799
 20
97.2792991055
 10
175.1190917689
 20
97.5779502272
 10
175.3110992934
 20
97.826105884
 10
175.4661170101
 20
98.0250173897
 10
175.5754117634
 20
98.1644906562
 10
175.6309142511
 20
98.2350964831
 10
175.6496719145
 20
98.2589243063
 10
175.6496719145
 20
98.2589243063
  0
SPLINE
  5
89
330
1F
100
AcDbEntity
  8
0
  6
Continuous
 62
     7
370
    15
100
AcDbSpline
210
0.0
220
0.0
230
1.0
 70
     8
 71
     3
 72
    50
 73
    46
 74
     0
 42
0.00000001
 43
0.00000001
 40
0.0
 40
0.0
 40
0.0
 40
0.0
 40
0.0214606065258679
 40
0.0429218753367411
 40
0.0650968009575956
 40
0.0872736551581067
 40
0.1087107695927265
 40
0.1301499324119081
 40
0.1521118837761326
 40
0.1740758900936009
 40
0.2027923089462949
 40
0.2315129598273811
 40
0.2610556384571545
 40
0.2906000464012883
 40
0.3197123852610655
 40
0.3488218973409867
 40
0.3788265356130587
 40
0.4088175322039312
 40
0.4258714758884659
 40
0.4429227544735054
 40
0.460394725214445
 40
0.4778638452475304
 40
0.4949528271274537
 40
0.5120413742685048
 40
0.5297225119501215
 40
0.5474061678853567
 40
0.5676131633457472
 40
0.5878256052207367
 40
0.6085989305460902
 40
0.6293761291561384
 40
0.6587967283882642
 40
0.6882229991139928
 40
0.718473950962431
 40
0.7487244766147888
 40
0.7786330417159488
 40
0.8085375508472797
 40
0.8394857129208645
 40
0.8704261335839156
 40
0.8916063730221792
 40
0.9127846612099397
 40
0.9345455641739131
 40
0.9563046723433667
 40
0.9775086895213826
 40
0.9987120465084118
 40
1.0
 40
1.0
 40
1.0
 40
1.0
 10
143.6496719145131
 20
98.25892430626918
 30
0.0
 10
143.6545770363157
 20
98.25270708600367
 30
0.0
 10
143.6643874312955
 20
98.24027245360617
 30
0.0
 10
143.7430318080114
 20
98.14022911370218
 30
0.0
 10
143.8693306590605
 20
97.97901838663934
 30
0.0
 10
144.0441132493373
 20
97.75444583562464
 30
0.0
 10
144.259904020944
 20
97.47492731842483
 30
0.0
 10
144.5128150365797
 20
97.14379010100585
 30
0.0
 10
144.802372739583
 20
96.7597178969427
 30
0.0
 10
145.1574014478396
 20
96.28095409658498
 30
0.0
 10
145.5813126654061
 20
95.69653418486547
 30
0.0
 10
146.0786746871322
 20
94.98776784178567
 30
0.0
 10
146.6042061745698
 20
94.20732602114417
 30
0.0
 10
147.1433039919584
 20
93.36115806245142
 30
0.0
 10
147.6789266721776
 20
92.46016402613348
 30
0.0
 10
148.2012731224003
 20
91.49570481804452
 30
0.0
 10
148.6957750387527
 20
90.46135133946844
 30
0.0
 10
149.0737505997256
 20
89.51268733542408
 30
0.0
 10
149.3398383216046
 20
88.68988446068444
 30
0.0
 10
149.5199441251141
 20
88.00917608869668
 30
0.0
 10
149.660122630041
 20
87.3061882395551
 30
0.0
 10
149.7535596316988
 20
86.5896458095007
 30
0.0
 10
149.7947604179621
 20
85.87051355707615
 30
0.0
 10
149.7843764919759
 20
85.14661900764644
 30
0.0
 10
149.7195742100671
 20
84.41889623888648
 30
0.0
 10
149.5974626039829
 20
83.65904172038712
 30
0.0
 10
149.4147751671568
 20
82.88281166334494
 30
0.0
 10
149.1714619185613
 20
82.09045314579825
 30
0.0
 10
148.8834748536243
 20
81.31909958142671
 30
0.0
 10
148.5146993338515
 20
80.46695399726862
 30
0.0
 10
148.0635085902156
 20
79.55687934332732
 30
0.0
 10
147.5296645210225
 20
78.59897406158862
 30
0.0
 10
146.979411712047
 20
77.69294453430574
 30
0.0
 10
146.4287153355518
 20
76.84567024780159
 30
0.0
 10
145.8967665488018
 20
76.06732160526819
 30
0.0
 10
145.3889739330906
 20
75.35360563726687
 30
0.0
 10
144.9178440999707
 20
74.7116386818082
 30
0.0
 10
144.5416006557961
 20
74.21171141529568
 30
0.0
 10
144.256629395651
 20
73.838669989073
 30
0.0
 10
144.04415399026
 20
73.56346886140464
 30
0.0
 10
143.8725227787734
 20
73.34292101606994
 30
0.0
 10
143.7450710905086
 20
73.18022602036736
 30
0.0
 10
143.672859650024
 20
73.08833130461532
 30
0.0
 10
143.6422366016305
 20
73.04948401548202
 30
0.0
 10
143.6506464757752
 20
73.06016174661684
 30
0.0
 10
143.6511280629543
 20
73.06077320147672
 30
0.0
  0
LINE
  5
8A
330
1F
100
AcDbEntity
  8
0
  6
Continuous
 62
     8
370
    15
100
AcDbLine
 10
144.6496719145
 20
59.7289234576
 30
0.0
 11
174.6496719145
 21
59.7289234576
 31
0.0
  0
LINE
  5
8B
330
1F
100
AcDbEntity
  8
0
  6
Continuous
 62
     8
370
    15
100
AcDbLine
 10
174.4817534982
 20
59.5315132958
 30
0.0
 11
144.8175903309
 21
59.5315132958
 31
0.0
  0
ENDSEC
  0
SECTION
  2
OBJECTS
  0
DICTIONARY
  5
C
330
0
100
AcDbDictionary
281
     1
  3
ACAD_GROUP
350
D
  3
ACAD_LAYOUT
350
1A
  3
ACAD_MLEADERSTYLE
350
8E
  3
ACAD_MLINESTYLE
350
17
  3
ACAD_PLOTSETTINGS
350
19
  3
ACAD_PLOTSTYLENAME
350
E
  3
ACAD_VISUALSTYLE
350
2A
  3
AcDbVariableDictionary
350
8C
  0
DICTIONARY
  5
D
102
{ACAD_REACTORS
330
C
102
}
330
C
100
AcDbDictionary
281
     1
  0
DICTIONARY
  5
1A
102
{ACAD_REACTORS
330
C
102
}
330
C
100
AcDbDictionary
281
     1
  3
Layout1
350
1E
  3
Layout2
350
26
  3
Model
350
22
  0
DICTIONARY
  5
8E
102
{ACAD_REACTORS
330
C
102
}
330
C
100
AcDbDictionary
281
     1
  0
DICTIONARY
  5
17
102
{ACAD_REACTORS
330
C
102
}
330
C
100
AcDbDictionary
281
     1
  3
Standard
350
18
  0
DICTIONARY
  5
19
102
{ACAD_REACTORS
330
C
102
}
330
C
100
AcDbDictionary
281
     1
  0
ACDBDICTIONARYWDFLT
  5
E
102
{ACAD_REACTORS
330
C
102
}
330
C
100
AcDbDictionary
281
     1
  3
Normal
350
F
100
AcDbDictionaryWithDefault
340
F
  0
DICTIONARY
  5
2A
102
{ACAD_REACTORS
330
C
102
}
330
C
100
AcDbDictionary
281
     1
  3
2dWireframe
350
2F
  3
3D Hidden
350
31
  3
3dWireframe
350
30
  3
Basic
350
32
  3
Brighten
350
36
  3
ColorChange
350
3A
  3
Conceptual
350
34
  3
Dim
350
35
  3
Facepattern
350
39
  3
Flat
350
2B
  3
FlatWithEdges
350
2C
  3
Gouraud
350
2D
  3
GouraudWithEdges
350
2E
  3
Linepattern
350
38
  3
Realistic
350
33
  3
Thicken
350
37
  0
DICTIONARY
  5
8C
102
{ACAD_REACTORS
330
C
102
}
330
C
100
AcDbDictionary
281
     1
  3
DIMASSOC
350
91
  3
HIDETEXT
350
92
  3
PSOLHEIGHT
350
90
  3
PSOLWIDTH
350
8F
  0
LAYOUT
  5
1E
102
{ACAD_REACTORS
330
1A
102
}
330
1A
100
AcDbPlotSettings
  1

  2
none_device
  4

  6

 40
0.0
 41
0.0
 42
0.0
 43
0.0
 44
0.0
 45
0.0
 46
0.0
 47
0.0
 48
0.0
 49
0.0
140
0.0
141
0.0
142
1.0
143
1.0
 70
   688
 72
     0
 73
     0
 74
     5
  7

 75
    16
147
1.0
148
0.0
149
0.0
100
AcDbLayout
  1
Layout1
 70
     1
 71
     1
 10
0.0
 20
0.0
 11
420.0
 21
297.0
 12
0.0
 22
0.0
 32
0.0
 14
1.0000000000E+20
 24
1.0000000000E+20
 34
1.0000000000E+20
 15
-1.0000000000E+20
 25
-1.0000000000E+20
 35
-1.0000000000E+20
146
0.0
 13
0.0
 23
0.0
 33
0.0
 16
1.0
 26
0.0
 36
0.0
 17
0.0
 27
1.0
 37
0.0
 76
     0
330
1B
  0
LAYOUT
  5
26
102
{ACAD_REACTORS
330
1A
102
}
330
1A
100
AcDbPlotSettings
  1

  2
none_device
  4

  6

 40
0.0
 41
0.0
 42
0.0
 43
0.0
 44
0.0
 45
0.0
 46
0.0
 47
0.0
 48
0.0
 49
0.0
140
0.0
141
0.0
142
1.0
143
1.0
 70
   688
 72
     0
 73
     0
 74
     5
  7

 75
    16
147
1.0
148
0.0
149
0.0
100
AcDbLayout
  1
Layout2
 70
     1
 71
     2
 10
0.0
 20
0.0
 11
0.0
 21
0.0
 12
0.0
 22
0.0
 32
0.0
 14
0.0
 24
0.0
 34
0.0
 15
0.0
 25
0.0
 35
0.0
146
0.0
 13
0.0
 23
0.0
 33
0.0
 16
1.0
 26
0.0
 36
0.0
 17
0.0
 27
1.0
 37
0.0
 76
     0
330
23
  0
LAYOUT
  5
22
102
{ACAD_REACTORS
330
1A
102
}
330
1A
100
AcDbPlotSettings
  1

  2
none_device
  4

  6

 40
0.0
 41
0.0
 42
0.0
 43
0.0
 44
0.0
 45
0.0
 46
0.0
 47
0.0
 48
0.0
 49
0.0
140
0.0
141
0.0
142
1.0
143
1.0
 70
  1712
 72
     0
 73
     0
 74
     0
  7

 75
     0
147
1.0
148
0.0
149
0.0
100
AcDbLayout
  1
Model
 70
     1
 71
     0
 10
0.0
 20
0.0
 11
431.8
 21
279.4
 12
0.0
 22
0.0
 32
0.0
 14
0.0
 24
0.0
 34
0.0
 15
431.8
 25
279.4
 35
0.0
146
0.0
 13
0.0
 23
0.0
 33
0.0
 16
1.0
 26
0.0
 36
0.0
 17
0.0
 27
1.0
 37
0.0
 76
     0
330
1F
331
29
  0
MLINESTYLE
  5
18
102
{ACAD_REACTORS
330
17
102
}
330
17
100
AcDbMlineStyle
  2
Standard
 70
     0
  3

 62
   256
 51
90.0
 52
90.0
 71
     2
 49
0.5
 62
   256
  6
BYLAYER
 49
-0.5
 62
   256
  6
BYLAYER
  0
ACDBPLACEHOLDER
  5
F
102
{ACAD_REACTORS
330
E
102
}
330
E
  0
VISUALSTYLE
  5
2F
102
{ACAD_REACTORS
330
2A
102
}
330
2A
100
AcDbVisualStyle
  2
2dWireframe
 70
     4
 71
     0
 72
     2
 73
     0
 90
        0
 40
-0.6
 41
-30.0
 62
     5
 63
     7
 74
     1
 91
        4
 64
     7
 65
   257
 75
     1
175
     1
 42
1.0
 92
        0
 66
   257
 43
1.0
 76
     1
 77
     6
 78
     2
 67
     7
 79
     5
170
     0
171
     0
290
     0
174
     0
 93
        1
 44
0.0
173
     0
291
     0
 45
0.0
1001
ACAD
1000
AcDbSavedByObjectVersion
1070
     0
  0
VISUALSTYLE
  5
31
102
{ACAD_REACTORS
330
2A
102
}
330
2A
100
AcDbVisualStyle
  2
3D Hidden
 70
     6
 71
     1
 72
     2
 73
     2
 90
        0
 40
-0.6
 41
-30.0
 62
     5
 63
     7
 74
     2
 91
        2
 64
     7
 65
   257
 75
     2
175
     1
 42
40.0
 92
        0
 66
   257
 43
1.0
 76
     1
 77
     6
 78
     2
 67
     7
 79
     3
170
     0
171
     0
290
     0
174
     0
 93
        1
 44
0.0
173
     0
291
     0
 45
0.0
1001
ACAD
1000
AcDbSavedByObjectVersion
1070
     0
  0
VISUALSTYLE
  5
30
102
{ACAD_REACTORS
330
2A
102
}
330
2A
100
AcDbVisualStyle
  2
3dWireframe
 70
     5
 71
     0
 72
     2
 73
     0
 90
        0
 40
-0.6
 41
-30.0
 62
     5
 63
     7
 74
     1
 91
        4
 64
     7
 65
   257
 75
     1
175
     1
 42
1.0
 92
        0
 66
   257
 43
1.0
 76
     1
 77
     6
 78
     2
 67
     7
 79
     5
170
     0
171
     0
290
     0
174
     0
 93
        1
 44
0.0
173
     0
291
     0
 45
0.0
1001
ACAD
1000
AcDbSavedByObjectVersion
1070
     0
  0
VISUALSTYLE
  5
32
102
{ACAD_REACTORS
330
2A
102
}
330
2A
100
AcDbVisualStyle
  2
Basic
 70
     7
 71
     1
 72
     0
 73
     1
 90
        0
 40
-0.6
 41
-30.0
 62
     5
 63
     7
 74
     0
 91
        4
 64
     7
 65
   257
 75
     1
175
     1
 42
1.0
 92
        8
 66
     7
 43
1.0
 76
     1
 77
     6
 78
     2
 67
     7
 79
     5
170
     0
171
     0
290
     0
174
     0
 93
        1
 44
0.0
173
     0
291
     1
 45
0.0
1001
ACAD
1000
AcDbSavedByObjectVersion
1070
     0
  0
VISUALSTYLE
  5
36
102
{ACAD_REACTORS
330
2A
102
}
330
2A
100
AcDbVisualStyle
  2
Brighten
 70
    12
 71
     2
 72
     2
 73
     0
 90
        0
 40
-0.6
 41
-30.0
 62
     5
 63
     7
 74
     1
 91
        4
 64
     7
 65
   257
 75
     1
175
     1
 42
1.0
 92
        8
 66
     7
 43
1.0
 76
     1
 77
     6
 78
     2
 67
     7
 79
     5
170
     0
171
     0
290
     0
174
     0
 93
        1
 44
50.0
173
     0
291
     1
 45
0.0
1001
ACAD
1000
AcDbSavedByObjectVersion
1070
     0
  0
VISUALSTYLE
  5
3A
102
{ACAD_REACTORS
330
2A
102
}
330
2A
100
AcDbVisualStyle
  2
ColorChange
 70
    16
 71
     2
 72
     2
 73
     3
 90
        0
 40
-0.6
 41
-30.0
 62
     5
 63
     8
 74
     1
 91
        4
 64
     7
 65
   257
 75
     1
175
     1
 42
1.0
 92
        8
 66
     8
 43
1.0
 76
     1
 77
     6
 78
     2
 67
     7
 79
     5
170
     0
171
     0
290
     0
174
     0
 93
        1
 44
0.0
173
     0
291
     1
 45
0.0
1001
ACAD
1000
AcDbSavedByObjectVersion
1070
     0
  0
VISUALSTYLE
  5
34
102
{ACAD_REACTORS
330
2A
102
}
330
2A
100
AcDbVisualStyle
  2
Conceptual
 70
     9
 71
     3
 72
     2
 73
     0
 90
        0
 40
-0.6
 41
-30.0
 62
     5
 63
     7
 74
     2
 91
        2
 64
     7
 65
   257
 75
     1
175
     1
 42
40.0
 92
        8
 66
     7
 43
1.0
 76
     1
 77
     6
 78
     2
 67
     7
 79
     3
170
     0
171
     0
290
     0
174
     0
 93
        1
 44
0.0
173
     0
291
     0
 45
0.0
1001
ACAD
1000
AcDbSavedByObjectVersion
1070
     0
  0
VISUALSTYLE
  5
35
102
{ACAD_REACTORS
330
2A
102
}
330
2A
100
AcDbVisualStyle
  2
Dim
 70
    11
 71
     2
 72
     2
 73
     0
 90
        0
 40
-0.6
 41
-30.0
 62
     5
 63
     7
 74
     1
 91
        4
 64
     7
 65
   257
 75
     1
175
     1
 42
1.0
 92
        8
 66
     7
 43
1.0
 76
     1
 77
     6
 78
     2
 67
     7
 79
     5
170
     0
171
     0
290
     0
174
     0
 93
        1
 44
-50.0
173
     0
291
     1
 45
0.0
1001
ACAD
1000
AcDbSavedByObjectVersion
1070
     0
  0
VISUALSTYLE
  5
39
102
{ACAD_REACTORS
330
2A
102
}
330
2A
100
AcDbVisualStyle
  2
Facepattern
 70
    15
 71
     2
 72
     2
 73
     0
 90
        0
 40
-0.6
 41
-30.0
 62
     5
 63
     7
 74
     1
 91
        4
 64
     7
 65
   257
 75
     1
175
     1
 42
1.0
 92
        8
 66
     7
 43
1.0
 76
     1
 77
     6
 78
     2
 67
     7
 79
     5
170
     0
171
     0
290
     0
174
     0
 93
        1
 44
0.0
173
     0
291
     1
 45
0.0
1001
ACAD
1000
AcDbSavedByObjectVersion
1070
     0
  0
VISUALSTYLE
  5
2B
102
{ACAD_REACTORS
330
2A
102
}
330
2A
100
AcDbVisualStyle
  2
Flat
 70
     0
 71
     2
 72
     1
 73
     1
 90
        2
 40
-0.6
 41
30.0
 62
     5
 63
     7
 74
     0
 91
        4
 64
     7
 65
   257
 75
     1
175
     1
 42
1.0
 92
        8
 66
     7
 43
1.0
 76
     1
 77
     6
 78
     2
 67
     7
 79
     5
170
     0
171
     0
290
     0
174
     0
 93
       13
 44
0.0
173
     0
291
     1
 45
0.0
1001
ACAD
1000
AcDbSavedByObjectVersion
1070
     0
  0
VISUALSTYLE
  5
2C
102
{ACAD_REACTORS
330
2A
102
}
330
2A
100
AcDbVisualStyle
  2
FlatWithEdges
 70
     1
 71
     2
 72
     1
 73
     1
 90
        2
 40
-0.6
 41
30.0
 62
     5
 63
     7
 74
     1
 91
        4
 64
     7
 65
   257
 75
     1
175
     1
 42
1.0
 92
        0
 66
   257
 43
1.0
 76
     1
 77
     6
 78
     2
 67
     7
 79
     5
170
     0
171
     0
290
     0
174
     0
 93
       13
 44
0.0
173
     0
291
     1
 45
0.0
1001
ACAD
1000
AcDbSavedByObjectVersion
1070
     0
  0
VISUALSTYLE
  5
2D
102
{ACAD_REACTORS
330
2A
102
}
330
2A
100
AcDbVisualStyle
  2
Gouraud
 70
     2
 71
     2
 72
     2
 73
     1
 90
        2
 40
-0.6
 41
30.0
 62
     5
 63
     7
 74
     0
 91
        4
 64
     7
 65
   257
 75
     1
175
     1
 42
1.0
 92
        0
 66
     7
 43
1.0
 76
     1
 77
     6
 78
     2
 67
     7
 79
     5
170
     0
171
     0
290
     0
174
     0
 93
       13
 44
0.0
173
     0
291
     1
 45
0.0
1001
ACAD
1000
AcDbSavedByObjectVersion
1070
     0
  0
VISUALSTYLE
  5
2E
102
{ACAD_REACTORS
330
2A
102
}
330
2A
100
AcDbVisualStyle
  2
GouraudWithEdges
 70
     3
 71
     2
 72
     2
 73
     1
 90
        2
 40
-0.6
 41
30.0
 62
     5
 63
     7
 74
     1
 91
        4
 64
     7
 65
   257
 75
     1
175
     1
 42
1.0
 92
        0
 66
   257
 43
1.0
 76
     1
 77
     6
 78
     2
 67
     7
 79
     5
170
     0
171
     0
290
     0
174
     0
 93
       13
 44
0.0
173
     0
291
     1
 45
0.0
1001
ACAD
1000
AcDbSavedByObjectVersion
1070
     0
  0
VISUALSTYLE
  5
38
102
{ACAD_REACTORS
330
2A
102
}
330
2A
100
AcDbVisualStyle
  2
Linepattern
 70
    14
 71
     2
 72
     2
 73
     0
 90
        0
 40
-0.6
 41
-30.0
 62
     5
 63
     7
 74
     1
 91
        4
 64
     7
 65
   257
 75
     7
175
     7
 42
1.0
 92
        8
 66
     7
 43
1.0
 76
     1
 77
     6
 78
     2
 67
     7
 79
     5
170
     0
171
     0
290
     0
174
     0
 93
        1
 44
0.0
173
     0
291
     1
 45
0.0
1001
ACAD
1000
AcDbSavedByObjectVersion
1070
     0
  0
VISUALSTYLE
  5
33
102
{ACAD_REACTORS
330
2A
102
}
330
2A
100
AcDbVisualStyle
  2
Realistic
 70
     8
 71
     2
 72
     2
 73
     0
 90
        0
 40
-0.6
 41
-30.0
 62
     5
 63
     7
 74
     1
 91
        0
 64
     7
 65
   257
 75
     1
175
     1
 42
1.0
 92
        8
 66
     8
 43
1.0
 76
     1
 77
     6
 78
     2
 67
     7
 79
     5
170
     0
171
     0
290
     0
174
     0
 93
       13
 44
0.0
173
     0
291
     0
 45
0.0
1001
ACAD
1000
AcDbSavedByObjectVersion
1070
     0
  0
VISUALSTYLE
  5
37
102
{ACAD_REACTORS
330
2A
102
}
330
2A
100
AcDbVisualStyle
  2
Thicken
 70
    13
 71
     2
 72
     2
 73
     0
 90
        0
 40
-0.6
 41
-30.0
 62
     5
 63
     7
 74
     1
 91
        4
 64
     7
 65
   257
 75
     1
175
     1
 42
1.0
 92
       12
 66
     7
 43
1.0
 76
     1
 77
     6
 78
     2
 67
     7
 79
     5
170
     0
171
     0
290
     0
174
     0
 93
        1
 44
0.0
173
     0
291
     1
 45
0.0
1001
ACAD
1000
AcDbSavedByObjectVersion
1070
     0
  0
DICTIONARYVAR
  5
91
102
{ACAD_REACTORS
330
8C
102
}
330
8C
100
DictionaryVariables
280
     0
  1
2
  0
DICTIONARYVAR
  5
92
102
{ACAD_REACTORS
330
8C
102
}
330
8C
100
DictionaryVariables
280
     0
  1
1
  0
DICTIONARYVAR
  5
90
102
{ACAD_REACTORS
330
8C
102
}
330
8C
100
DictionaryVariables
280
     0
  1
80.000000
  0
DICTIONARYVAR
  5
8F
102
{ACAD_REACTORS
330
8C
102
}
330
8C
100
DictionaryVariables
280
     0
  1
5.000000
  0
ENDSEC
  0
EOF
